Shoes,Latin,$65,Dance,alcancesocial.com.br,Standard,Clothing, Shoes Jewelry , Women,/caesuric477671.html,Dancing,Shoes,Women's,Weddin,Crystals $65 Dancing Shoes Women's Standard Latin Dance Shoes Crystals Weddin Clothing, Shoes Jewelry Women $65 Dancing Shoes Women's Standard Latin Dance Shoes Crystals Weddin Clothing, Shoes Jewelry Women Dancing Shoes Women's Standard Reservation Latin Dance Crystals Weddin Shoes,Latin,$65,Dance,alcancesocial.com.br,Standard,Clothing, Shoes Jewelry , Women,/caesuric477671.html,Dancing,Shoes,Women's,Weddin,Crystals Dancing Shoes Women's Standard Reservation Latin Dance Crystals Weddin

Dancing Shoes Women's Standard Reservation Latin Dance Crystals Weddin 2021new shipping free shipping

Dancing Shoes Women's Standard Latin Dance Shoes Crystals Weddin

$65

Dancing Shoes Women's Standard Latin Dance Shoes Crystals Weddin

|||

Product description

Welcome to the XXF-Shop.
is committed to making cheap and high quality dance shoes for women, men and children.
This type of Latin dance shoes’ heel height is 7.5CM,8.5CM,10CM,You can choose the Black、Red、Gold、Blue、Silver.
Size(UK)------Size(EU)------Heel to Toe(CM)
2.5--------------34------------------21.8 CM----------
3----------------35------------------22.3 CM----------
3.5--------------36------------------22.8 CM----------
4----------------37------------------23.3 CM----------
4.5--------------38------------------23.8 CM----------
5----------------39------------------24.3 CM----------
5.5--------------40------------------24.8 CM----------
6----------------41------------------25.3 CM----------
6.5--------------42------------------25.8 CM----------
7----------------43------------------26.3 CM----------
Pure manual measurement, there will be 0.1-0.2CM error, which is normal.According to your length of the foot. Please choose the right size.if you have a slim foot, please choose the UK size directly.And, If you have the fat foot, please choose a bigger size.
If you have any questions,please free to contact directly,will try our best to help you to solve.
If you need any help, please contact us.

Dancing Shoes Women's Standard Latin Dance Shoes Crystals Weddin

Shortcuts

Sign up for updates!

Get the news from ALMA Observatory in your inbox.